  0
SECTION
  2
HEADER
999
MacDraft 5.0\0
  9
$ACADVER
  1
AC1006
  9
$CLAYER
  8
0
  9
$EXTMIN
 10
0.000000
 20
0.000000
  9
$EXTMAX
 10
16.546000
 20
3.418522
  9
$FASTZOOM
 70
0
  9
$FILLMODE
 70
1
  0
ENDSEC
  0
SECTION
  2
TABLES
  0
TABLE
  2
LTYPE
 70
16
  0
LTYPE
  2
CONTINUOUS
 70
64
  3
Solid Line
 72
65
 73
0
 40
0.000000
  0
LTYPE
  2
LTYPE01
 70
64
  3
CUSTOM
 72
65
 73
2
 40
0.111111
 49
0.083333
 49
-0.027778
  0
LTYPE
  2
LTYPE02
 70
64
  3
CUSTOM
 72
65
 73
2
 40
0.194444
 49
0.166667
 49
-0.027778
  0
LTYPE
  2
LTYPE03
 70
64
  3
CUSTOM
 72
65
 73
2
 40
0.375000
 49
0.333333
 49
-0.041667
  0
LTYPE
  2
LTYPE04
 70
64
  3
CUSTOM
 72
65
 73
2
 40
0.722222
 49
0.666667
 49
-0.055556
  0
LTYPE
  2
LTYPE05
 70
64
  3
CUSTOM
 72
65
 73
4
 40
0.152778
 49
0.083333
 49
-0.027778
 49
0.013889
 49
-0.027778
  0
LTYPE
  2
LTYPE06
 70
64
  3
CUSTOM
 72
65
 73
4
 40
0.236111
 49
0.166667
 49
-0.027778
 49
0.013889
 49
-0.027778
  0
LTYPE
  2
LTYPE07
 70
64
  3
CUSTOM
 72
65
 73
4
 40
0.444444
 49
0.333333
 49
-0.041667
 49
0.027778
 49
-0.041667
  0
LTYPE
  2
LTYPE08
 70
64
  3
CUSTOM
 72
65
 73
4
 40
0.805556
 49
0.666667
 49
-0.055556
 49
0.027778
 49
-0.055556
  0
LTYPE
  2
LTYPE09
 70
64
  3
CUSTOM
 72
65
 73
6
 40
0.194444
 49
0.083333
 49
-0.027778
 49
0.013889
 49
-0.027778
 49
0.013889
 49
-0.027778
  0
LTYPE
  2
LTYPE10
 70
64
  3
CUSTOM
 72
65
 73
6
 40
0.277778
 49
0.166667
 49
-0.027778
 49
0.013889
 49
-0.027778
 49
0.013889
 49
-0.027778
  0
LTYPE
  2
LTYPE11
 70
64
  3
CUSTOM
 72
65
 73
6
 40
0.500000
 49
0.333333
 49
-0.041667
 49
0.027778
 49
-0.027778
 49
0.027778
 49
-0.041667
  0
LTYPE
  2
LTYPE12
 70
64
  3
CUSTOM
 72
65
 73
6
 40
0.861111
 49
0.666667
 49
-0.055556
 49
0.027778
 49
-0.027778
 49
0.027778
 49
-0.055556
  0
LTYPE
  2
LTYPE13
 70
64
  3
CUSTOM
 72
65
 73
8
 40
0.319444
 49
0.166667
 49
-0.027778
 49
0.013889
 49
-0.027778
 49
0.013889
 49
-0.027778
 49
0.013889
 49
-0.027778
  0
LTYPE
  2
LTYPE14
 70
64
  3
CUSTOM
 72
65
 73
8
 40
0.555556
 49
0.333333
 49
-0.041667
 49
0.027778
 49
-0.027778
 49
0.027778
 49
-0.027778
 49
0.027778
 49
-0.041667
  0
LTYPE
  2
LTYPE15
 70
64
  3
CUSTOM
 72
65
 73
8
 40
0.944444
 49
0.666667
 49
-0.055556
 49
0.027778
 49
-0.041667
 49
0.027778
 49
-0.041667
 49
0.027778
 49
-0.055556
  0
ENDTAB
  0
TABLE
  2
LAYER
 70
2
  0
LAYER
  2
0
 70
0
 62
7
  6
CONTINUOUS
  0
LAYER
  2
DEFPOINTS
 70
0
 62
7
  6
CONTINUOUS
  0
ENDTAB
  0
ENDSEC
  0
SECTION
  2
BLOCKS
  0
ENDSEC
  0
SECTION
  2
ENTITIES
  0
CIRCLE
  8
0
 62
  9
 10
12.975214
 20
2.086873
 30
0.000000
 40
0.049223
  0
CIRCLE
  8
0
 62
  9
 10
11.045668
 20
0.944897
 30
0.000000
 40
0.049223
  0
CIRCLE
  8
0
 62
  9
 10
6.280870
 20
2.086873
 30
0.000000
 40
0.049223
  0
CIRCLE
  8
0
 62
  9
 10
4.351323
 20
0.944897
 30
0.000000
 40
0.049223
  0
CIRCLE
  8
0
 62
  9
 10
16.061110
 20
1.515885
 30
0.000000
 40
0.157514
  0
CIRCLE
  8
0
 62
  9
 10
7.501603
 20
0.944897
 30
0.000000
 40
0.049223
  0
CIRCLE
  8
0
 62
  9
 10
9.824934
 20
2.086873
 30
0.000000
 40
0.049223
  0
CIRCLE
  8
0
 62
  9
 10
16.125494
 20
2.086873
 30
0.000000
 40
0.049223
  0
CIRCLE
  8
0
 62
  9
 10
14.195947
 20
2.086873
 30
0.000000
 40
0.049223
  0
CIRCLE
  8
0
 62
  9
 10
3.130590
 20
0.944897
 30
0.000000
 40
0.049223
  0
CIRCLE
  8
0
 62
  9
 10
1.201044
 20
0.944897
 30
0.000000
 40
0.049223
  0
POLYLINE
  8
0
 66
  1
 70
  0
 62
  9
 10
0.787570
 20
2.480658
 30
0.000000
  0
VERTEX
  8
0
 10
0.787570
 20
2.480658
 30
0.000000
  0
VERTEX
  8
0
 10
0.787570
 20
0.551112
 30
0.000000
  0
SEQEND
  8
0
  0
POLYLINE
  8
0
 66
  1
 70
  0
 62
  9
 10
0.787570
 20
0.551112
 30
0.000000
  0
VERTEX
  8
0
 10
0.787570
 20
0.551112
 30
0.000000
  0
VERTEX
  8
0
 10
0.807259
 20
0.531422
 30
0.000000
  0
SEQEND
  8
0
  0
POLYLINE
  8
0
 66
  1
 70
  0
 62
  9
 10
0.807259
 20
0.531422
 30
0.000000
  0
VERTEX
  8
0
 10
0.807259
 20
0.531422
 30
0.000000
  0
VERTEX
  8
0
 10
3.996917
 20
0.531422
 30
0.000000
  0
SEQEND
  8
0
  0
ARC
  8
0
 62
  9
 10
4.626973
 20
0.007032
 30
0.000000
 40
0.819729
 50
90.000000
 51
140.229675
  0
POLYLINE
  8
0
 66
  1
 70
  0
 62
  9
 10
4.626973
 20
0.826761
 30
0.000000
  0
VERTEX
  8
0
 10
4.626973
 20
0.826761
 30
0.000000
  0
VERTEX
  8
0
 10
6.005220
 20
0.826761
 30
0.000000
  0
SEQEND
  8
0
  0
ARC
  8
0
 62
  9
 10
6.005220
 20
0.007032
 30
0.000000
 40
0.819729
 50
39.770325
 51
90.000000
  0
POLYLINE
  8
0
 66
  1
 70
  0
 62
  9
 10
6.635276
 20
0.531422
 30
0.000000
  0
VERTEX
  8
0
 10
6.635276
 20
0.531422
 30
0.000000
  0
VERTEX
  8
0
 10
10.691261
 20
0.531422
 30
0.000000
  0
SEQEND
  8
0
  0
ARC
  8
0
 62
  9
 10
11.321317
 20
0.007032
 30
0.000000
 40
0.819729
 50
90.000000
 51
140.229675
  0
POLYLINE
  8
0
 66
  1
 70
  0
 62
  9
 10
11.321317
 20
0.826761
 30
0.000000
  0
VERTEX
  8
0
 10
11.321317
 20
0.826761
 30
0.000000
  0
VERTEX
  8
0
 10
12.699565
 20
0.826761
 30
0.000000
  0
SEQEND
  8
0
  0
ARC
  8
0
 62
  9
 10
12.699565
 20
0.007032
 30
0.000000
 40
0.819729
 50
39.770325
 51
90.000000
  0
POLYLINE
  8
0
 66
  1
 70
  0
 62
  9
 10
13.329621
 20
0.531422
 30
0.000000
  0
VERTEX
  8
0
 10
13.329621
 20
0.531422
 30
0.000000
  0
VERTEX
  8
0
 10
16.519279
 20
0.531422
 30
0.000000
  0
SEQEND
  8
0
  0
POLYLINE
  8
0
 66
  1
 70
  0
 62
  9
 10
16.519279
 20
0.531422
 30
0.000000
  0
VERTEX
  8
0
 10
16.519279
 20
0.531422
 30
0.000000
  0
VERTEX
  8
0
 10
16.538968
 20
0.551112
 30
0.000000
  0
SEQEND
  8
0
  0
POLYLINE
  8
0
 66
  1
 70
  0
 62
  9
 10
16.538968
 20
0.551112
 30
0.000000
  0
VERTEX
  8
0
 10
16.538968
 20
0.551112
 30
0.000000
  0
VERTEX
  8
0
 10
16.538968
 20
2.480658
 30
0.000000
  0
SEQEND
  8
0
  0
POLYLINE
  8
0
 66
  1
 70
  0
 62
  9
 10
16.538968
 20
2.480658
 30
0.000000
  0
VERTEX
  8
0
 10
16.538968
 20
2.480658
 30
0.000000
  0
VERTEX
  8
0
 10
16.519279
 20
2.500347
 30
0.000000
  0
SEQEND
  8
0
  0
POLYLINE
  8
0
 66
  1
 70
  0
 62
  9
 10
16.519279
 20
2.500347
 30
0.000000
  0
VERTEX
  8
0
 10
16.519279
 20
2.500347
 30
0.000000
  0
VERTEX
  8
0
 10
13.329621
 20
2.500347
 30
0.000000
  0
SEQEND
  8
0
  0
ARC
  8
0
 62
  9
 10
12.699565
 20
3.024737
 30
0.000000
 40
0.819729
 50
270.000000
 51
320.229675
  0
POLYLINE
  8
0
 66
  1
 70
  0
 62
  9
 10
12.699565
 20
2.205008
 30
0.000000
  0
VERTEX
  8
0
 10
12.699565
 20
2.205008
 30
0.000000
  0
VERTEX
  8
0
 10
11.321317
 20
2.205008
 30
0.000000
  0
SEQEND
  8
0
  0
ARC
  8
0
 62
  9
 10
11.321317
 20
3.024737
 30
0.000000
 40
0.819729
 50
219.770325
 51
270.000000
  0
POLYLINE
  8
0
 66
  1
 70
  0
 62
  9
 10
10.691261
 20
2.500347
 30
0.000000
  0
VERTEX
  8
0
 10
10.691261
 20
2.500347
 30
0.000000
  0
VERTEX
  8
0
 10
6.635276
 20
2.500347
 30
0.000000
  0
SEQEND
  8
0
  0
ARC
  8
0
 62
  9
 10
6.005220
 20
3.024737
 30
0.000000
 40
0.819729
 50
270.000000
 51
320.229675
  0
POLYLINE
  8
0
 66
  1
 70
  0
 62
  9
 10
6.005220
 20
2.205008
 30
0.000000
  0
VERTEX
  8
0
 10
6.005220
 20
2.205008
 30
0.000000
  0
VERTEX
  8
0
 10
4.626973
 20
2.205008
 30
0.000000
  0
SEQEND
  8
0
  0
ARC
  8
0
 62
  9
 10
4.626973
 20
3.024737
 30
0.000000
 40
0.819729
 50
219.770325
 51
270.000000
  0
POLYLINE
  8
0
 66
  1
 70
  0
 62
  9
 10
3.996917
 20
2.500347
 30
0.000000
  0
VERTEX
  8
0
 10
3.996917
 20
2.500347
 30
0.000000
  0
VERTEX
  8
0
 10
0.807259
 20
2.500347
 30
0.000000
  0
SEQEND
  8
0
  0
POLYLINE
  8
0
 66
  1
 70
  0
 62
  9
 10
0.807259
 20
2.500347
 30
0.000000
  0
VERTEX
  8
0
 10
0.807259
 20
2.500347
 30
0.000000
  0
VERTEX
  8
0
 10
0.787570
 20
2.480658
 30
0.000000
  0
SEQEND
  8
0
  0
CIRCLE
  8
0
 62
  9
 10
1.201044
 20
2.086873
 30
0.000000
 40
0.049223
  0
CIRCLE
  8
0
 62
  9
 10
3.130590
 20
2.086873
 30
0.000000
 40
0.049223
  0
CIRCLE
  8
0
 62
  9
 10
14.195947
 20
0.944897
 30
0.000000
 40
0.049223
  0
CIRCLE
  8
0
 62
  9
 10
16.125494
 20
0.944897
 30
0.000000
 40
0.049223
  0
CIRCLE
  8
0
 62
  9
 10
9.824934
 20
0.944897
 30
0.000000
 40
0.049223
  0
CIRCLE
  8
0
 62
  9
 10
7.501603
 20
2.086873
 30
0.000000
 40
0.049223
  0
CIRCLE
  8
0
 62
  9
 10
1.265428
 20
1.515885
 30
0.000000
 40
0.157514
  0
CIRCLE
  8
0
 62
  9
 10
4.351323
 20
2.086873
 30
0.000000
 40
0.049223
  0
CIRCLE
  8
0
 62
  9
 10
6.280870
 20
0.944897
 30
0.000000
 40
0.049223
  0
CIRCLE
  8
0
 62
  9
 10
11.045668
 20
2.086873
 30
0.000000
 40
0.049223
  0
CIRCLE
  8
0
 62
  9
 10
12.975214
 20
0.944897
 30
0.000000
 40
0.049223
  0
CIRCLE
  8
0
 62
  9
 10
8.663269
 20
1.515885
 30
0.000000
 40
0.102384
  0
POLYLINE
  8
0
 66
  1
 70
  0
 62
  9
 10
8.663269
 20
1.515885
 30
0.000000
  0
VERTEX
  8
0
 10
8.663269
 20
1.515885
 30
0.000000
  0
VERTEX
  8
0
 10
8.663269
 20
1.524114
 30
0.000000
  0
SEQEND
  8
0
  0
POLYLINE
  8
0
 66
  1
 70
  0
 62
  9
 10
8.663269
 20
1.515885
 30
0.000000
  0
VERTEX
  8
0
 10
8.663269
 20
1.515885
 30
0.000000
  0
VERTEX
  8
0
 10
8.667383
 20
1.515885
 30
0.000000
  0
SEQEND
  8
0
  0
ENDSEC
  0
EOF
